Martes, 15 de febrero de 2011

Aki esta esta vercion de piratas del caribe que esta exelente.. Muchas risas

???

Y E AKI LAS TABLATURAS..?

?

Disfrutenla!!!


e|----------------------------------------------------------------------|
B|----------------------------------------------------------------------|
G|------------------------------------------------------------------7---|
D|------------------------------------------------------------------7---|
A|-5----5-5----5-5----5-5-5-5--5----5-5----5-5----5-5-5-5--5------------|
E|----------------------------------------------------------------------|



e|----------------------------------------------------------------------|
B|-------------------------5---6-6-----6--8---5-5-----------------------|
G|------5---7-7-----7---------------------------------7--5--7-----------|
D|--5-------------------------------------------------------------------|
A|----------------------------------------------------------------------|
E|----------------------------------------------------------------------|



e|----------------------------------------------------------------------|
B|-------------------------5---6-6-----6--8---5-5-----------------------|
G|------5---7-7-----7---------------------------------7--5--7-----------|
D|--5-------------------------------------------------------------------|
A|----------------------------------------------------------------------|
E|----------------------------------------------------------------------|




e|----------------------------------------------6-6---5-----5-----------|
B|--------------------5--6---8-8-----6--8---------------8---------------|
G|------5---7-7-----------------------------------------------7---------|
D|--5-------------------------------------------------------------------|
A|----------------------------------------------------------------------|
E|----------------------------------------------------------------------|



e|----------------------5-----------------------------------------------|
B|------5---6-6---8----------------6--5-------6--5----------------------|
G|--7---------------------7-----7-----------7---------------------------|
D|----------------------------------------------------------------------|
A|----------------------------------------------------------------------|
E|----------------------------------------------------------------------|


e|----------------------------------------------------------------------|
B|-------------------------5---6-6-----6--8---5-5-----------------------|
G|------5---7-7-----7---------------------------------7--5--7-----------|
D|--5-------------------------------------------------------------------|
A|----------------------------------------------------------------------|
E|----------------------------------------------------------------------|



e|----------------------------------------------------------------------|
B|-------------------------5---6-6-----6--8---5-5-----------------------|
G|------5---7-7-----7---------------------------------7--5--7-----------|
D|--5-------------------------------------------------------------------|
A|----------------------------------------------------------------------|
E|----------------------------------------------------------------------|



e|----------------------------------------------6-6---5-----5-----------|
B|--------------------5--6---8-8-----6--8---------------8---------------|
G|------5---7-7-----------------------------------------------7---------|
D|--5-------------------------------------------------------------------|
A|----------------------------------------------------------------------|
E|----------------------------------------------------------------------|



e|----------------------5-----------------------------------------------|
B|------5---6-6---8----------------6--5---------------------------------|
G|--7---------------------7-----7-----------7--5--7---------------------|
D|----------------------------------------------------------------------|
A|----------------------------------------------------------------------|
E|----------------------------------------------------------------------|



e|------------------5---------1-----------------------------------------|
B|--3-/-6--6-6--8---5-----------3--------11-----------------------------|
G|--4-/-7--7-7--7---7--------------2------------10---------------7---10-|
D|--------------------------------------------------8------4/7----------|
A|----------------------------------------------------------------------|
E|----------------------------------------------------------------------|



e|----------------------------------------------------------------------|
B|--10---10---10---11-10-------8---8---8---8---10-----------------------|
G|--10---10---10---10-10-------9---9---9---9---9------------------------|
D|----------------------------------------------------------------------|
A|----------------------------------------------------------------------|
E|----------------------------------------------------------------------|



e|----------------------------------------------------------------------|
B|--10---10---10---11-10-------6/8---6---5---3--------------------------|
G|--10---10---10---10-10-------7/9---7---4---2--------------------------|
D|----------------------------------------------------------------------|
A|----------------------------------------------------------------------|
E|----------------------------------------------------------------------|



e|----------------------------------------------------------------------|
B|-------------8--10--8-------------8--10--8----------------------------|
G|--7-9-10---------------10--9--10--------------------------------------|
D|----------------------------------------------------------------------|
A|----------------------------------------------------------------------|
E|----------------------------------------------------------------------|



e|----------------------------------------------------------------------|
B|------8-10---8h10p8---------------------------------------------------|
G|--10----------------------10--9------9--------7-----------------------|
D|-----------------------------------------10------10-------------------|
A|----------------------------------------------------------------------|
E|----------------------------------------------------------------------|



e|----------------------------------------------------------------------|
B|---------------8------8---10---8--------------------------------------|
G|--7-9-10--9-10---10----------------10---7-----------------------------|
D|----------------------------------------------------------------------|
A|----------------------------------------------------------------------|
E|----------------------------------------------------------------------|



e|----------------------------------------------------------------------|
B|-------------8--10--10/11-------8-------------------------------------|
G|--7-9-10---------------------7-----10-----9-----7---------------------|
D|---------------------------------------------10-----------------------|
A|----------------------------------------------------------------------|
E|----------------------------------------------------------------------|



e|----------------------------------------------------------------------|
B|--10------11-----10---10---10--10-8-----------------------------------|
G|----------------------------------------------------------------------|
D|----------------------------------------------------------------------|
A|----------------------------------------------------------------------|
E|----------------------------------------------------------------------|



e|----------------------------------------------------------------------|
B|--8------6-----5---6---5--3-------------------------------------------|
G|----------------------------------------------------------------------|
D|----------------------------------------------------------------------|
A|----------------------------------------------------------------------|
E|----------------------------------------------------------------------|



e|----------------------------------------------------------------------|
B|--10------11-----10---10---10--10-8-----------------------------------|
G|----------------------------------------------------------------------|
D|----------------------------------------------------------------------|
A|----------------------------------------------------------------------|
E|----------------------------------------------------------------------|



e|----------------------------------------------------------------------|
B|--8------6-----5---6---5--3-------------------------------------------|
G|----------------------------------------------------------------------|
D|----------------------------------------------------------------------|
A|----------------------------------------------------------------------|
E|----------------------------------------------------------------------|



e|----------------------------8-----------------------------------------|
B|--10------11-----10---10-------10p8-----------------------------------|
G|----------------------------------------------------------------------|
D|----------------------------------------------------------------------|
A|----------------------------------------------------------------------|
E|----------------------------------------------------------------------|



e|----------------------------------------------------------------------|
B|--8------6-----5---6---5--3-------------------------------------------|
G|----------------------------------------------------------------------|
D|----------------------------------------------------------------------|
A|----------------------------------------------------------------------|
E|----------------------------------------------------------------------|



e|----------------------------8-----------------------------------------|
B|--10------11-----10---10-------10p8-----------------------------------|
G|----------------------------------------------------------------------|
D|----------------------------------------------------------------------|
A|----------------------------------------------------------------------|
E|----------------------------------------------------------------------|



e|----------------------------------------------------------------------|
B|--8------6-----5---6---5--3-------------------------------------------|
G|----------------------------------------------------------------------|
D|----------------------------------------------------------------------|
A|----------------------------------------------------------------------|
E|----------------------------------------------------------------------|

QUE VIVA BOLIVIA CARAJO!!!


Comentarios
Publicado por [email protected]
Lunes, 29 de agosto de 2011 | 13:59

ola oie ke e estado intentando tocar la cancion pero me e dado cuenta de ke en las ultimas tablaturas aparecen solo notas y en el video lo tocas en arcordes y una parte con arpegio...me podrias decir como se toca esa parte porfavor?

Publicado por [email protected]
Viernes, 08 de junio de 2012 | 0:36

como se hace 10p8 o 4/7?

Publicado por [email protected]
Viernes, 08 de junio de 2012 | 0:39

como se toca 8h10p8 o 10/11? no tengo la menor idea de como hacerlo

Publicado por [email protected]
Domingo, 17 de junio de 2012 | 0:11

saavedra esto significa:

Publicado por [email protected]
Domingo, 17 de junio de 2012 | 0:12

/: slide (significa q debes deslizar tu dedo ej: 10/11 singifica q tokas con tu dedo en el espacio 10 y lo deslizas hasta el espacio 11)

Publicado por [email protected]
Domingo, 17 de junio de 2012 | 0:13

p: pull of ( ej: 10p8 significa q tienes q poner un dedo en el espacio 10 y otro en el espacio 8, entonces al tokar la cuerda debes sakar tu dedo del espacio 10 y asi ará q suene el del espacio 8, si no keda klaro buskas pull of en la guitarra)

Publicado por [email protected]
Domingo, 17 de junio de 2012 | 0:13

h: hammer (tokas en este caso en el espacio 8 y luego mientras siga sonando la cuerda debes apretar con otro dedo sin soltar el anterior en el espacio 10, si note keda claro buska q significa hammer en la guitarra)

Publicado por [email protected]
Viernes, 29 de junio de 2012 | 3:53

gracias por la ayuda matias. en verdad me sirvio

Publicado por [email protected]
S?bado, 14 de julio de 2012 | 0:05

que decepcion esta incompleto las tablaturas desquiciado desquiciado desquiciado desquiciado desquiciado desquiciado desquiciado

Publicado por luislaliz
S?bado, 07 de septiembre de 2013 | 9:18

lo mas que molesta de las personas es que sean embidiosos espero que cuando dejes de existir te los lleves jajajajajaaj

no seas asi si puedes compaerte toda las tablaturas compin es de gran ayuda para los que no podemos  racias